ISO-10303-21;
HEADER;
FILE_DESCRIPTION (( 'STEP AP203' ),
    '1' );
FILE_NAME ('MgF2-MIRQWP-12.7-2700-M.STEP',
    '2020-12-23T01:28:55',
    ( '' ),
    ( '' ),
    'SwSTEP 2.0',
    'SolidWorks 2020',
    '' );
FILE_SCHEMA (( 'CONFIG_CONTROL_DESIGN' ));
ENDSEC;

DATA;
#1 = DIRECTION ( 'NONE',  ( 0.000000000000000000, 0.000000000000000000, 1.000000000000000000 ) ) ;
#2 = CC_DESIGN_APPROVAL ( #285, ( #121 ) ) ;
#3 = CARTESIAN_POINT ( 'NONE',  ( -3.000000000000000000, 0.000000000000000000, 12.69999999999999929 ) ) ;
#4 = ADVANCED_FACE ( 'NONE', ( #50, #234 ), #20, .F. ) ;
#5 = DIRECTION ( 'NONE',  ( -1.000000000000000000, -0.000000000000000000, -0.000000000000000000 ) ) ;
#6 = AXIS2_PLACEMENT_3D ( 'NONE', #318, #61, #118 ) ;
#7 = MANIFOLD_SOLID_BREP ( 'Ðý×', #176 ) ;
#8 = DIRECTION ( 'NONE',  ( 0.000000000000000000, 0.000000000000000000, -1.000000000000000000 ) ) ;
#9 = CIRCLE ( 'NONE', #18, 6.349999999999999645 ) ;
#10 = DESIGN_CONTEXT ( 'detailed design', #34, 'design' ) ;
#11 = PERSON_AND_ORGANIZATION ( #174, #69 ) ;
#12 = AXIS2_PLACEMENT_3D ( 'NONE', #305, #304, #259 ) ;
#13 = CARTESIAN_POINT ( 'NONE',  ( -3.000000000000000000, 1.555301434917138433E-15, -12.69999999999999929 ) ) ;
#14 = EDGE_LOOP ( 'NONE', ( #192, #26, #53, #237 ) ) ;
#15 = DATE_AND_TIME ( #132, #277 ) ;
#16 = DATE_TIME_ROLE ( 'classification_date' ) ;
#17 = ORIENTED_EDGE ( 'NONE', *, *, #257, .T. ) ;
#18 = AXIS2_PLACEMENT_3D ( 'NONE', #307, #208, #22 ) ;
#19 = DATE_TIME_ROLE ( 'creation_date' ) ;
#20 = PLANE ( 'NONE',  #72 ) ;
#21 = SHAPE_DEFINITION_REPRESENTATION ( #274, #36 ) ;
#22 = DIRECTION ( 'NONE',  ( 0.000000000000000000, 0.000000000000000000, 1.000000000000000000 ) ) ;
#23 = LOCAL_TIME ( 9, 28, 55.00000000000000000, #332 ) ;
#24 = PERSON_AND_ORGANIZATION ( #174, #69 ) ;
#25 = FACE_OUTER_BOUND ( 'NONE', #214, .T. ) ;
#26 = ORIENTED_EDGE ( 'NONE', *, *, #78, .T. ) ;
#27 = ADVANCED_FACE ( 'NONE', ( #308 ), #107, .T. ) ;
#28 = CIRCLE ( 'NONE', #210, 12.69999999999999929 ) ;
#29 = DIRECTION ( 'NONE',  ( 0.000000000000000000, 0.000000000000000000, 1.000000000000000000 ) ) ;
#30 = ORIENTED_EDGE ( 'NONE', *, *, #230, .T. ) ;
#31 = EDGE_CURVE ( 'NONE', #288, #162, #9, .T. ) ;
#32 = DIRECTION ( 'NONE',  ( -0.000000000000000000, 0.000000000000000000, 1.000000000000000000 ) ) ;
#33 = EDGE_CURVE ( 'NONE', #283, #82, #90, .T. ) ;
#34 = APPLICATION_CONTEXT ( 'configuration controlled 3d designs of mechanical parts and assemblies' ) ;
#35 = CARTESIAN_POINT ( 'NONE',  ( 3.000000000000000000, 0.000000000000000000, 12.69999999999999929 ) ) ;
#36 = ADVANCED_BREP_SHAPE_REPRESENTATION ( 'MgF2-MIRQWP-12.7-2700-M', ( #7, #117 ), #245 ) ;
#37 = AXIS2_PLACEMENT_3D ( 'NONE', #320, #149, #1 ) ;
#38 = LINE ( 'NONE', #250, #170 ) ;
#39 = EDGE_CURVE ( 'NONE', #281, #213, #28, .T. ) ;
#40 = CALENDAR_DATE ( 2020, 23, 12 ) ;
#41 = AXIS2_PLACEMENT_3D ( 'NONE', #241, #272, #8 ) ;
#42 = APPROVAL_DATE_TIME ( #275, #285 ) ;
#43 = VECTOR ( 'NONE', #122, 1000.000000000000000 ) ;
#44 = EDGE_CURVE ( 'NONE', #59, #92, #270, .T. ) ;
#45 = FACE_OUTER_BOUND ( 'NONE', #112, .T. ) ;
#46 = DIRECTION ( 'NONE',  ( -1.000000000000000000, -0.000000000000000000, -0.000000000000000000 ) ) ;
#47 = ORIENTED_EDGE ( 'NONE', *, *, #146, .T. ) ;
#48 = APPROVAL_ROLE ( '' ) ;
#49 = PERSON_AND_ORGANIZATION ( #174, #69 ) ;
#50 = FACE_OUTER_BOUND ( 'NONE', #86, .T. ) ;
#51 = CARTESIAN_POINT ( 'NONE',  ( -2.999999999999999556, 0.000000000000000000, 0.000000000000000000 ) ) ;
#52 = AXIS2_PLACEMENT_3D ( 'NONE', #120, #196, #168 ) ;
#53 = ORIENTED_EDGE ( 'NONE', *, *, #219, .T. ) ;
#54 = EDGE_CURVE ( 'NONE', #315, #82, #154, .T. ) ;
#55 = CALENDAR_DATE ( 2020, 23, 12 ) ;
#56 = DIRECTION ( 'NONE',  ( 0.000000000000000000, 0.000000000000000000, 1.000000000000000000 ) ) ;
#57 = ORIENTED_EDGE ( 'NONE', *, *, #219, .F. ) ;
#58 = DIRECTION ( 'NONE',  ( -1.000000000000000000, -0.000000000000000000, -0.000000000000000000 ) ) ;
#59 = VERTEX_POINT ( 'NONE', #262 ) ;
#60 = AXIS2_PLACEMENT_3D ( 'NONE', #84, #166, #29 ) ;
#61 = DIRECTION ( 'NONE',  ( -1.000000000000000000, -0.000000000000000000, -0.000000000000000000 ) ) ;
#62 = CC_DESIGN_PERSON_AND_ORGANIZATION_ASSIGNMENT ( #49, #232, ( #142 ) ) ;
#63 = ADVANCED_FACE ( 'NONE', ( #25 ), #140, .F. ) ;
#64 = CARTESIAN_POINT ( 'NONE',  ( 1.500000000000000888, 7.776507174585692163E-16, -6.349999999999999645 ) ) ;
#65 = CARTESIAN_POINT ( 'NONE',  ( -1.500000000000000444, 0.000000000000000000, 6.349999999999999645 ) ) ;
#66 = FACE_OUTER_BOUND ( 'NONE', #79, .T. ) ;
#67 = VECTOR ( 'NONE', #198, 1000.000000000000000 ) ;
#68 = PLANE ( 'NONE',  #287 ) ;
#69 = ORGANIZATION ( 'UNSPECIFIED', 'UNSPECIFIED', '' ) ;
#70 = COORDINATED_UNIVERSAL_TIME_OFFSET ( 8, 0, .AHEAD. ) ;
#71 = PERSON_AND_ORGANIZATION_ROLE ( 'design_owner' ) ;
#72 = AXIS2_PLACEMENT_3D ( 'NONE', #81, #264, #290 ) ;
#73 = PRODUCT ( 'MgF2-MIRQWP-12.7-2700-M', 'MgF2-MIRQWP-12.7-2700-M', '', ( #77 ) ) ;
#74 = CARTESIAN_POINT ( 'NONE',  ( 3.000000000000000000, 1.555301434917138433E-15, -12.69999999999999929 ) ) ;
#75 = LOCAL_TIME ( 9, 28, 55.00000000000000000, #258 ) ;
#76 = CARTESIAN_POINT ( 'NONE',  ( -2.999999999999999556, 0.000000000000000000, 6.349999999999999645 ) ) ;
#77 = MECHANICAL_CONTEXT ( 'NONE', #323, 'mechanical' ) ;
#78 = EDGE_CURVE ( 'NONE', #288, #92, #104, .T. ) ;
#79 = EDGE_LOOP ( 'NONE', ( #115, #284, #181, #110 ) ) ;
#80 = APPROVAL_ROLE ( '' ) ;
#81 = CARTESIAN_POINT ( 'NONE',  ( 3.000000000000000000, 12.69999999999999929, 0.000000000000000000 ) ) ;
#82 = VERTEX_POINT ( 'NONE', #134 ) ;
#83 = CALENDAR_DATE ( 2020, 23, 12 ) ;
#84 = CARTESIAN_POINT ( 'NONE',  ( 1.500000000000000888, 0.000000000000000000, 0.000000000000000000 ) ) ;
#85 = ADVANCED_FACE ( 'NONE', ( #333 ), #91, .F. ) ;
#86 = EDGE_LOOP ( 'NONE', ( #130, #165 ) ) ;
#87 = CC_DESIGN_PERSON_AND_ORGANIZATION_ASSIGNMENT ( #182, #71, ( #73 ) ) ;
#88 = CIRCLE ( 'NONE', #296, 6.349999999999999645 ) ;
#89 = APPROVAL_DATE_TIME ( #15, #223 ) ;
#90 = LINE ( 'NONE', #331, #183 ) ;
#91 = CYLINDRICAL_SURFACE ( 'NONE', #300, 6.349999999999999645 ) ;
#92 = VERTEX_POINT ( 'NONE', #64 ) ;
#93 = PLANE ( 'NONE',  #201 ) ;
#94 = CARTESIAN_POINT ( 'NONE',  ( -1.500000000000000444, 0.000000000000000000, 0.000000000000000000 ) ) ;
#95 = ORIENTED_EDGE ( 'NONE', *, *, #291, .T. ) ;
#96 = DIRECTION ( 'NONE',  ( 0.000000000000000000, 0.000000000000000000, 1.000000000000000000 ) ) ;
#97 = APPROVAL_PERSON_ORGANIZATION ( #261, #223, #80 ) ;
#98 = FACE_OUTER_BOUND ( 'NONE', #209, .T. ) ;
#99 = EDGE_CURVE ( 'NONE', #185, #313, #247, .T. ) ;
#100 = CYLINDRICAL_SURFACE ( 'NONE', #133, 6.349999999999999645 ) ;
#101 = AXIS2_PLACEMENT_3D ( 'NONE', #220, #314, #171 ) ;
#102 = APPLICATION_PROTOCOL_DEFINITION ( 'international standard', 'config_control_design', 1994, #323 ) ;
#103 = COORDINATED_UNIVERSAL_TIME_OFFSET ( 8, 0, .AHEAD. ) ;
#104 = LINE ( 'NONE', #256, #221 ) ;
#105 = APPROVAL_DATE_TIME ( #137, #252 ) ;
#106 = ORIENTED_EDGE ( 'NONE', *, *, #44, .T. ) ;
#107 = CYLINDRICAL_SURFACE ( 'NONE', #12, 12.69999999999999929 ) ;
#108 = ORIENTED_EDGE ( 'NONE', *, *, #257, .F. ) ;
#109 = ORIENTED_EDGE ( 'NONE', *, *, #54, .F. ) ;
#110 = ORIENTED_EDGE ( 'NONE', *, *, #39, .F. ) ;
#111 = LINE ( 'NONE', #113, #224 ) ;
#112 = EDGE_LOOP ( 'NONE', ( #164, #327 ) ) ;
#113 = CARTESIAN_POINT ( 'NONE',  ( -1.614212418857619014, 0.000000000000000000, 12.69999999999999929 ) ) ;
#114 = ADVANCED_FACE ( 'NONE', ( #66 ), #246, .T. ) ;
#115 = ORIENTED_EDGE ( 'NONE', *, *, #175, .F. ) ;
#116 = CARTESIAN_POINT ( 'NONE',  ( -1.614212418857619014, 1.555301434917138433E-15, -12.69999999999999929 ) ) ;
#117 = AXIS2_PLACEMENT_3D ( 'NONE', #123, #225, #324 ) ;
#118 = DIRECTION ( 'NONE',  ( 0.000000000000000000, 0.000000000000000000, 1.000000000000000000 ) ) ;
#119 = APPROVAL_PERSON_ORGANIZATION ( #177, #285, #48 ) ;
#120 = CARTESIAN_POINT ( 'NONE',  ( -2.999999999999999556, 0.000000000000000000, 0.000000000000000000 ) ) ;
#121 = PRODUCT_DEFINITION ( 'UNKNOWN', '', #142, #10 ) ;
#122 = DIRECTION ( 'NONE',  ( -1.000000000000000000, -0.000000000000000000, -0.000000000000000000 ) ) ;
#123 = CARTESIAN_POINT ( 'NONE',  ( 0.000000000000000000, 0.000000000000000000, 0.000000000000000000 ) ) ;
#124 = PRODUCT_RELATED_PRODUCT_CATEGORY ( 'detail', '', ( #73 ) ) ;
#125 = EDGE_CURVE ( 'NONE', #313, #185, #145, .T. ) ;
#126 = DIRECTION ( 'NONE',  ( 0.000000000000000000, 0.000000000000000000, 1.000000000000000000 ) ) ;
#127 = DATE_AND_TIME ( #311, #23 ) ;
#128 = ORIENTED_EDGE ( 'NONE', *, *, #306, .T. ) ;
#129 = PERSON_AND_ORGANIZATION_ROLE ( 'creator' ) ;
#130 = ORIENTED_EDGE ( 'NONE', *, *, #99, .F. ) ;
#131 = ADVANCED_FACE ( 'NONE', ( #194, #212 ), #93, .F. ) ;
#132 = CALENDAR_DATE ( 2020, 23, 12 ) ;
#133 = AXIS2_PLACEMENT_3D ( 'NONE', #202, #151, #126 ) ;
#134 = CARTESIAN_POINT ( 'NONE',  ( -2.999999999999999556, 7.776507174585692163E-16, -6.349999999999999645 ) ) ;
#135 = PERSON_AND_ORGANIZATION ( #174, #69 ) ;
#136 = DIRECTION ( 'NONE',  ( -1.000000000000000000, -0.000000000000000000, -0.000000000000000000 ) ) ;
#137 = DATE_AND_TIME ( #83, #75 ) ;
#138 = ORIENTED_EDGE ( 'NONE', *, *, #227, .F. ) ;
#139 = EDGE_LOOP ( 'NONE', ( #95, #329 ) ) ;
#140 = CYLINDRICAL_SURFACE ( 'NONE', #215, 6.349999999999999645 ) ;
#141 = ORIENTED_EDGE ( 'NONE', *, *, #175, .T. ) ;
#142 = PRODUCT_DEFINITION_FORMATION_WITH_SPECIFIED_SOURCE ( 'ANY', '', #73, .NOT_KNOWN. ) ;
#143 = EDGE_CURVE ( 'NONE', #82, #315, #193, .T. ) ;
#144 = DIRECTION ( 'NONE',  ( 1.000000000000000000, 0.000000000000000000, 0.000000000000000000 ) ) ;
#145 = CIRCLE ( 'NONE', #6, 12.69999999999999929 ) ;
#146 = EDGE_CURVE ( 'NONE', #213, #281, #243, .T. ) ;
#147 = DIRECTION ( 'NONE',  ( -1.000000000000000000, -0.000000000000000000, -0.000000000000000000 ) ) ;
#148 = LOCAL_TIME ( 9, 28, 55.00000000000000000, #70 ) ;
#149 = DIRECTION ( 'NONE',  ( -1.000000000000000000, -0.000000000000000000, -0.000000000000000000 ) ) ;
#150 = CC_DESIGN_DATE_AND_TIME_ASSIGNMENT ( #286, #19, ( #121 ) ) ;
#151 = DIRECTION ( 'NONE',  ( -1.000000000000000000, -0.000000000000000000, -0.000000000000000000 ) ) ;
#152 = AXIS2_PLACEMENT_3D ( 'NONE', #268, #147, #297 ) ;
#153 = CIRCLE ( 'NONE', #282, 6.349999999999999645 ) ;
#154 = CIRCLE ( 'NONE', #236, 6.349999999999999645 ) ;
#155 = ORIENTED_EDGE ( 'NONE', *, *, #99, .T. ) ;
#156 = PERSON_AND_ORGANIZATION_ROLE ( 'classification_officer' ) ;
#157 = CC_DESIGN_SECURITY_CLASSIFICATION ( #178, ( #142 ) ) ;
#158 = PERSON_AND_ORGANIZATION_ROLE ( 'creator' ) ;
#159 = DIRECTION ( 'NONE',  ( 0.000000000000000000, 0.000000000000000000, 1.000000000000000000 ) ) ;
#160 = AXIS2_PLACEMENT_3D ( 'NONE', #216, #5, #96 ) ;
#161 = SECURITY_CLASSIFICATION_LEVEL ( 'unclassified' ) ;
#162 = VERTEX_POINT ( 'NONE', #294 ) ;
#163 = APPROVAL_STATUS ( 'not_yet_approved' ) ;
#164 = ORIENTED_EDGE ( 'NONE', *, *, #203, .F. ) ;
#165 = ORIENTED_EDGE ( 'NONE', *, *, #125, .F. ) ;
#166 = DIRECTION ( 'NONE',  ( -1.000000000000000000, -0.000000000000000000, -0.000000000000000000 ) ) ;
#167 = DIRECTION ( 'NONE',  ( 1.000000000000000000, 0.000000000000000000, 0.000000000000000000 ) ) ;
#168 = DIRECTION ( 'NONE',  ( 0.000000000000000000, 0.000000000000000000, 1.000000000000000000 ) ) ;
#169 = DIRECTION ( 'NONE',  ( -1.000000000000000000, -0.000000000000000000, -0.000000000000000000 ) ) ;
#170 = VECTOR ( 'NONE', #46, 1000.000000000000000 ) ;
#171 = DIRECTION ( 'NONE',  ( 0.000000000000000000, 0.000000000000000000, 1.000000000000000000 ) ) ;
#172 = CARTESIAN_POINT ( 'NONE',  ( 1.500000000000000444, 6.349999999999999645, 0.000000000000000000 ) ) ;
#173 = CC_DESIGN_PERSON_AND_ORGANIZATION_ASSIGNMENT ( #135, #129, ( #142 ) ) ;
#174 = PERSON ( 'UNSPECIFIED', 'UNSPECIFIED', 'UNSPECIFIED', ('UNSPECIFIED'), ('UNSPECIFIED'), ('UNSPECIFIED') ) ;
#175 = EDGE_CURVE ( 'NONE', #313, #281, #218, .T. ) ;
#176 = CLOSED_SHELL ( 'NONE', ( #27, #239, #309, #200, #85, #63, #131, #114, #4, #302 ) ) ;
#177 = PERSON_AND_ORGANIZATION ( #174, #69 ) ;
#178 = SECURITY_CLASSIFICATION ( '', '', #161 ) ;
#179 = CC_DESIGN_PERSON_AND_ORGANIZATION_ASSIGNMENT ( #11, #158, ( #121 ) ) ;
#180 = DIRECTION ( 'NONE',  ( -1.000000000000000000, -0.000000000000000000, -0.000000000000000000 ) ) ;
#181 = ORIENTED_EDGE ( 'NONE', *, *, #227, .T. ) ;
#182 = PERSON_AND_ORGANIZATION ( #174, #69 ) ;
#183 = VECTOR ( 'NONE', #58, 1000.000000000000000 ) ;
#184 = ORIENTED_EDGE ( 'NONE', *, *, #143, .T. ) ;
#185 = VERTEX_POINT ( 'NONE', #35 ) ;
#186 = CARTESIAN_POINT ( 'NONE',  ( -1.614212418857619014, 0.000000000000000000, 0.000000000000000000 ) ) ;
#187 = ORIENTED_EDGE ( 'NONE', *, *, #146, .F. ) ;
#188 = CIRCLE ( 'NONE', #37, 6.349999999999999645 ) ;
#189 = DIRECTION ( 'NONE',  ( 0.000000000000000000, 0.000000000000000000, 1.000000000000000000 ) ) ;
#190 = EDGE_LOOP ( 'NONE', ( #255, #279, #128, #106 ) ) ;
#191 = DIRECTION ( 'NONE',  ( 0.000000000000000000, 0.000000000000000000, -1.000000000000000000 ) ) ;
#192 = ORIENTED_EDGE ( 'NONE', *, *, #31, .F. ) ;
#193 = CIRCLE ( 'NONE', #52, 6.349999999999999645 ) ;
#194 = FACE_BOUND ( 'NONE', #293, .T. ) ;
#195 = VERTEX_POINT ( 'NONE', #65 ) ;
#196 = DIRECTION ( 'NONE',  ( -1.000000000000000000, -0.000000000000000000, -0.000000000000000000 ) ) ;
#197 = AXIS2_PLACEMENT_3D ( 'NONE', #271, #169, #269 ) ;
#198 = DIRECTION ( 'NONE',  ( -1.000000000000000000, -0.000000000000000000, -0.000000000000000000 ) ) ;
#199 = LINE ( 'NONE', #204, #43 ) ;
#200 = ADVANCED_FACE ( 'NONE', ( #292 ), #68, .F. ) ;
#201 = AXIS2_PLACEMENT_3D ( 'NONE', #267, #167, #191 ) ;
#202 = CARTESIAN_POINT ( 'NONE',  ( -1.614212418857619014, 0.000000000000000000, 0.000000000000000000 ) ) ;
#203 = EDGE_CURVE ( 'NONE', #195, #283, #326, .T. ) ;
#204 = CARTESIAN_POINT ( 'NONE',  ( -1.614212418857619014, 0.000000000000000000, 6.349999999999999645 ) ) ;
#205 = ORIENTED_EDGE ( 'NONE', *, *, #33, .F. ) ;
#206 = DIRECTION ( 'NONE',  ( 0.000000000000000000, 0.000000000000000000, 1.000000000000000000 ) ) ;
#207 = CARTESIAN_POINT ( 'NONE',  ( -3.000000000000000000, 0.000000000000000000, 0.000000000000000000 ) ) ;
#208 = DIRECTION ( 'NONE',  ( -1.000000000000000000, -0.000000000000000000, -0.000000000000000000 ) ) ;
#209 = EDGE_LOOP ( 'NONE', ( #253, #317, #184, #108 ) ) ;
#210 = AXIS2_PLACEMENT_3D ( 'NONE', #207, #136, #189 ) ;
#211 = CARTESIAN_POINT ( 'NONE',  ( -1.614212418857619014, 0.000000000000000000, 0.000000000000000000 ) ) ;
#212 = FACE_OUTER_BOUND ( 'NONE', #229, .T. ) ;
#213 = VERTEX_POINT ( 'NONE', #3 ) ;
#214 = EDGE_LOOP ( 'NONE', ( #205, #30, #17, #263 ) ) ;
#215 = AXIS2_PLACEMENT_3D ( 'NONE', #186, #235, #159 ) ;
#216 = CARTESIAN_POINT ( 'NONE',  ( -1.614212418857619014, 0.000000000000000000, 0.000000000000000000 ) ) ;
#217 = APPROVAL_PERSON_ORGANIZATION ( #228, #252, #328 ) ;
#218 = LINE ( 'NONE', #116, #67 ) ;
#219 = EDGE_CURVE ( 'NONE', #92, #59, #188, .T. ) ;
#220 = CARTESIAN_POINT ( 'NONE',  ( -3.000000000000000000, 0.000000000000000000, 0.000000000000000000 ) ) ;
#221 = VECTOR ( 'NONE', #335, 1000.000000000000000 ) ;
#222 = DIRECTION ( 'NONE',  ( 0.000000000000000000, 0.000000000000000000, 1.000000000000000000 ) ) ;
#223 = APPROVAL ( #163, 'UNSPECIFIED' ) ;
#224 = VECTOR ( 'NONE', #316, 1000.000000000000000 ) ;
#225 = DIRECTION ( 'NONE',  ( 0.000000000000000000, 0.000000000000000000, 1.000000000000000000 ) ) ;
#226 =( NAMED_UNIT ( * ) PLANE_ANGLE_UNIT ( ) SI_UNIT ( $, .RADIAN. ) );
#227 = EDGE_CURVE ( 'NONE', #185, #213, #111, .T. ) ;
#228 = PERSON_AND_ORGANIZATION ( #174, #69 ) ;
#229 = EDGE_LOOP ( 'NONE', ( #47, #303 ) ) ;
#230 = EDGE_CURVE ( 'NONE', #283, #195, #88, .T. ) ;
#231 = EDGE_LOOP ( 'NONE', ( #266, #57 ) ) ;
#232 = PERSON_AND_ORGANIZATION_ROLE ( 'design_supplier' ) ;
#233 = APPROVAL_STATUS ( 'not_yet_approved' ) ;
#234 = FACE_BOUND ( 'NONE', #139, .T. ) ;
#235 = DIRECTION ( 'NONE',  ( -1.000000000000000000, -0.000000000000000000, -0.000000000000000000 ) ) ;
#236 = AXIS2_PLACEMENT_3D ( 'NONE', #51, #289, #56 ) ;
#237 = ORIENTED_EDGE ( 'NONE', *, *, #306, .F. ) ;
#238 = ORIENTED_EDGE ( 'NONE', *, *, #143, .F. ) ;
#239 = ADVANCED_FACE ( 'NONE', ( #98 ), #295, .F. ) ;
#240 = LOCAL_TIME ( 9, 28, 55.00000000000000000, #103 ) ;
#241 = CARTESIAN_POINT ( 'NONE',  ( -1.500000000000000444, 0.000000000000000000, 0.000000000000000000 ) ) ;
#242 = DIRECTION ( 'NONE',  ( 0.000000000000000000, 0.000000000000000000, -1.000000000000000000 ) ) ;
#243 = CIRCLE ( 'NONE', #101, 12.69999999999999929 ) ;
#244 = DIRECTION ( 'NONE',  ( -1.000000000000000000, 0.000000000000000000, -0.000000000000000000 ) ) ;
#245 =( GEOMETRIC_REPRESENTATION_CONTEXT ( 3 ) GLOBAL_UNCERTAINTY_ASSIGNED_CONTEXT ( ( #310 ) ) GLOBAL_UNIT_ASSIGNED_CONTEXT ( ( #299, #226, #273 ) ) REPRESENTATION_CONTEXT ( 'NONE', 'WORKASPACE' ) );
#246 = CYLINDRICAL_SURFACE ( 'NONE', #160, 12.69999999999999929 ) ;
#247 = CIRCLE ( 'NONE', #152, 12.69999999999999929 ) ;
#248 = CARTESIAN_POINT ( 'NONE',  ( -1.500000000000000444, 6.349999999999999645, 0.000000000000000000 ) ) ;
#249 = CARTESIAN_POINT ( 'NONE',  ( 3.000000000000000888, 7.776507174585692163E-16, -6.349999999999999645 ) ) ;
#250 = CARTESIAN_POINT ( 'NONE',  ( -1.614212418857619014, 0.000000000000000000, 6.349999999999999645 ) ) ;
#251 = PLANE ( 'NONE',  #321 ) ;
#252 = APPROVAL ( #233, 'UNSPECIFIED' ) ;
#253 = ORIENTED_EDGE ( 'NONE', *, *, #203, .T. ) ;
#254 = COORDINATED_UNIVERSAL_TIME_OFFSET ( 8, 0, .AHEAD. ) ;
#255 = ORIENTED_EDGE ( 'NONE', *, *, #78, .F. ) ;
#256 = CARTESIAN_POINT ( 'NONE',  ( -1.614212418857619014, 7.776507174585692163E-16, -6.349999999999999645 ) ) ;
#257 = EDGE_CURVE ( 'NONE', #195, #315, #38, .T. ) ;
#258 = COORDINATED_UNIVERSAL_TIME_OFFSET ( 8, 0, .AHEAD. ) ;
#259 = DIRECTION ( 'NONE',  ( 0.000000000000000000, 0.000000000000000000, 1.000000000000000000 ) ) ;
#260 = CC_DESIGN_APPROVAL ( #252, ( #178 ) ) ;
#261 = PERSON_AND_ORGANIZATION ( #174, #69 ) ;
#262 = CARTESIAN_POINT ( 'NONE',  ( 1.500000000000000888, 0.000000000000000000, 6.349999999999999645 ) ) ;
#263 = ORIENTED_EDGE ( 'NONE', *, *, #54, .T. ) ;
#264 = DIRECTION ( 'NONE',  ( -1.000000000000000000, 0.000000000000000000, -0.000000000000000000 ) ) ;
#265 = CC_DESIGN_DATE_AND_TIME_ASSIGNMENT ( #127, #16, ( #178 ) ) ;
#266 = ORIENTED_EDGE ( 'NONE', *, *, #44, .F. ) ;
#267 = CARTESIAN_POINT ( 'NONE',  ( -3.000000000000000000, 6.349999999999999645, 0.000000000000000000 ) ) ;
#268 = CARTESIAN_POINT ( 'NONE',  ( 3.000000000000000000, 0.000000000000000000, 0.000000000000000000 ) ) ;
#269 = DIRECTION ( 'NONE',  ( 0.000000000000000000, 0.000000000000000000, 1.000000000000000000 ) ) ;
#270 = CIRCLE ( 'NONE', #60, 6.349999999999999645 ) ;
#271 = CARTESIAN_POINT ( 'NONE',  ( -1.614212418857619014, 0.000000000000000000, 0.000000000000000000 ) ) ;
#272 = DIRECTION ( 'NONE',  ( 1.000000000000000000, 0.000000000000000000, 0.000000000000000000 ) ) ;
#273 =( NAMED_UNIT ( * ) SI_UNIT ( $, .STERADIAN. ) SOLID_ANGLE_UNIT ( ) );
#274 = PRODUCT_DEFINITION_SHAPE ( 'NONE', 'NONE',  #121 ) ;
#275 = DATE_AND_TIME ( #40, #148 ) ;
#276 = CARTESIAN_POINT ( 'NONE',  ( 3.000000000000000888, 0.000000000000000000, 0.000000000000000000 ) ) ;
#277 = LOCAL_TIME ( 9, 28, 55.00000000000000000, #254 ) ;
#278 = FACE_OUTER_BOUND ( 'NONE', #14, .T. ) ;
#279 = ORIENTED_EDGE ( 'NONE', *, *, #291, .F. ) ;
#280 = APPLICATION_PROTOCOL_DEFINITION ( 'international standard', 'config_control_design', 1994, #34 ) ;
#281 = VERTEX_POINT ( 'NONE', #13 ) ;
#282 = AXIS2_PLACEMENT_3D ( 'NONE', #276, #180, #222 ) ;
#283 = VERTEX_POINT ( 'NONE', #322 ) ;
#284 = ORIENTED_EDGE ( 'NONE', *, *, #125, .T. ) ;
#285 = APPROVAL ( #298, 'UNSPECIFIED' ) ;
#286 = DATE_AND_TIME ( #55, #240 ) ;
#287 = AXIS2_PLACEMENT_3D ( 'NONE', #172, #244, #32 ) ;
#288 = VERTEX_POINT ( 'NONE', #249 ) ;
#289 = DIRECTION ( 'NONE',  ( -1.000000000000000000, -0.000000000000000000, -0.000000000000000000 ) ) ;
#290 = DIRECTION ( 'NONE',  ( -0.000000000000000000, 0.000000000000000000, 1.000000000000000000 ) ) ;
#291 = EDGE_CURVE ( 'NONE', #162, #288, #153, .T. ) ;
#292 = FACE_OUTER_BOUND ( 'NONE', #231, .T. ) ;
#293 = EDGE_LOOP ( 'NONE', ( #109, #238 ) ) ;
#294 = CARTESIAN_POINT ( 'NONE',  ( 3.000000000000000888, 0.000000000000000000, 6.349999999999999645 ) ) ;
#295 = CYLINDRICAL_SURFACE ( 'NONE', #197, 6.349999999999999645 ) ;
#296 = AXIS2_PLACEMENT_3D ( 'NONE', #94, #144, #242 ) ;
#297 = DIRECTION ( 'NONE',  ( 0.000000000000000000, 0.000000000000000000, 1.000000000000000000 ) ) ;
#298 = APPROVAL_STATUS ( 'not_yet_approved' ) ;
#299 =( LENGTH_UNIT ( ) NAMED_UNIT ( * ) SI_UNIT ( .MILLI., .METRE. ) );
#300 = AXIS2_PLACEMENT_3D ( 'NONE', #211, #312, #206 ) ;
#301 = DIRECTION ( 'NONE',  ( 1.000000000000000000, 0.000000000000000000, 0.000000000000000000 ) ) ;
#302 = ADVANCED_FACE ( 'NONE', ( #45 ), #251, .F. ) ;
#303 = ORIENTED_EDGE ( 'NONE', *, *, #39, .T. ) ;
#304 = DIRECTION ( 'NONE',  ( -1.000000000000000000, -0.000000000000000000, -0.000000000000000000 ) ) ;
#305 = CARTESIAN_POINT ( 'NONE',  ( -1.614212418857619014, 0.000000000000000000, 0.000000000000000000 ) ) ;
#306 = EDGE_CURVE ( 'NONE', #162, #59, #199, .T. ) ;
#307 = CARTESIAN_POINT ( 'NONE',  ( 3.000000000000000888, 0.000000000000000000, 0.000000000000000000 ) ) ;
#308 = FACE_OUTER_BOUND ( 'NONE', #334, .T. ) ;
#309 = ADVANCED_FACE ( 'NONE', ( #278 ), #100, .F. ) ;
#310 = UNCERTAINTY_MEASURE_WITH_UNIT (LENGTH_MEASURE( 1.000000000000000082E-05 ), #299, 'distance_accuracy_value', 'NONE');
#311 = CALENDAR_DATE ( 2020, 23, 12 ) ;
#312 = DIRECTION ( 'NONE',  ( -1.000000000000000000, -0.000000000000000000, -0.000000000000000000 ) ) ;
#313 = VERTEX_POINT ( 'NONE', #74 ) ;
#314 = DIRECTION ( 'NONE',  ( -1.000000000000000000, -0.000000000000000000, -0.000000000000000000 ) ) ;
#315 = VERTEX_POINT ( 'NONE', #76 ) ;
#316 = DIRECTION ( 'NONE',  ( -1.000000000000000000, -0.000000000000000000, -0.000000000000000000 ) ) ;
#317 = ORIENTED_EDGE ( 'NONE', *, *, #33, .T. ) ;
#318 = CARTESIAN_POINT ( 'NONE',  ( 3.000000000000000000, 0.000000000000000000, 0.000000000000000000 ) ) ;
#319 = CC_DESIGN_APPROVAL ( #223, ( #142 ) ) ;
#320 = CARTESIAN_POINT ( 'NONE',  ( 1.500000000000000888, 0.000000000000000000, 0.000000000000000000 ) ) ;
#321 = AXIS2_PLACEMENT_3D ( 'NONE', #248, #301, #325 ) ;
#322 = CARTESIAN_POINT ( 'NONE',  ( -1.500000000000000444, 7.776507174585692163E-16, -6.349999999999999645 ) ) ;
#323 = APPLICATION_CONTEXT ( 'configuration controlled 3d designs of mechanical parts and assemblies' ) ;
#324 = DIRECTION ( 'NONE',  ( 1.000000000000000000, 0.000000000000000000, 0.000000000000000000 ) ) ;
#325 = DIRECTION ( 'NONE',  ( 0.000000000000000000, 0.000000000000000000, -1.000000000000000000 ) ) ;
#326 = CIRCLE ( 'NONE', #41, 6.349999999999999645 ) ;
#327 = ORIENTED_EDGE ( 'NONE', *, *, #230, .F. ) ;
#328 = APPROVAL_ROLE ( '' ) ;
#329 = ORIENTED_EDGE ( 'NONE', *, *, #31, .T. ) ;
#330 = CC_DESIGN_PERSON_AND_ORGANIZATION_ASSIGNMENT ( #24, #156, ( #178 ) ) ;
#331 = CARTESIAN_POINT ( 'NONE',  ( -1.614212418857619014, 7.776507174585692163E-16, -6.349999999999999645 ) ) ;
#332 = COORDINATED_UNIVERSAL_TIME_OFFSET ( 8, 0, .AHEAD. ) ;
#333 = FACE_OUTER_BOUND ( 'NONE', #190, .T. ) ;
#334 = EDGE_LOOP ( 'NONE', ( #155, #141, #187, #138 ) ) ;
#335 = DIRECTION ( 'NONE',  ( -1.000000000000000000, -0.000000000000000000, -0.000000000000000000 ) ) ;
ENDSEC;
END-ISO-10303-21;
